ISO-10303-21;
HEADER;
/* Generated by software containing ST-Developer
 * from STEP Tools, Inc. (www.steptools.com) 
 */

FILE_DESCRIPTION(
/* description */ ('F\X\FCllprofil ohne Absatz'),
/* implementation_level */ '2;1');

FILE_NAME(
/* name */ '100005672.stp',
/* time_stamp */ '2024-01-18T08:48:26+01:00',
/* author */ ('selema'),
/* organization */ (''),
/* preprocessor_version */ 'ST-DEVELOPER v20',
/* originating_system */ 'Autodesk Inventor 2024',
/* authorisation */ '');

FILE_SCHEMA (('AUTOMOTIVE_DESIGN { 1 0 10303 214 3 1 1 }'));
ENDSEC;

DATA;
#10=MECHANICAL_DESIGN_GEOMETRIC_PRESENTATION_REPRESENTATION('',(#25,#26,
#27,#28,#29,#30,#31,#32,#33,#34,#35,#36,#37,#38),#552);
#11=SHAPE_REPRESENTATION_RELATIONSHIP('SRR','None',#559,#12);
#12=ADVANCED_BREP_SHAPE_REPRESENTATION('',(#13),#551);
#13=MANIFOLD_SOLID_BREP('Volumenk\X\F6rper1',#321);
#14=FACE_BOUND('',#68,.T.);
#15=FACE_BOUND('',#69,.T.);
#16=PLANE('',#355);
#17=PLANE('',#356);
#18=PLANE('',#362);
#19=PLANE('',#363);
#20=PLANE('',#367);
#21=PLANE('',#369);
#22=PLANE('',#370);
#23=PLANE('',#371);
#24=PLANE('',#372);
#25=STYLED_ITEM('',(#568),#308);
#26=STYLED_ITEM('',(#568),#309);
#27=STYLED_ITEM('',(#568),#310);
#28=STYLED_ITEM('',(#568),#311);
#29=STYLED_ITEM('',(#568),#312);
#30=STYLED_ITEM('',(#568),#313);
#31=STYLED_ITEM('',(#568),#314);
#32=STYLED_ITEM('',(#568),#315);
#33=STYLED_ITEM('',(#568),#316);
#34=STYLED_ITEM('',(#568),#317);
#35=STYLED_ITEM('',(#568),#318);
#36=STYLED_ITEM('',(#568),#319);
#37=STYLED_ITEM('',(#568),#320);
#38=STYLED_ITEM('',(#568),#13);
#39=CYLINDRICAL_SURFACE('',#346,2.5);
#40=CYLINDRICAL_SURFACE('',#350,2.5);
#41=CYLINDRICAL_SURFACE('',#352,10.);
#42=CYLINDRICAL_SURFACE('',#360,0.3);
#43=CYLINDRICAL_SURFACE('',#366,0.3);
#44=CYLINDRICAL_SURFACE('',#368,0.3);
#45=FACE_OUTER_BOUND('',#62,.T.);
#46=FACE_OUTER_BOUND('',#63,.T.);
#47=FACE_OUTER_BOUND('',#64,.T.);
#48=FACE_OUTER_BOUND('',#65,.T.);
#49=FACE_OUTER_BOUND('',#66,.T.);
#50=FACE_OUTER_BOUND('',#67,.T.);
#51=FACE_OUTER_BOUND('',#70,.T.);
#52=FACE_OUTER_BOUND('',#71,.T.);
#53=FACE_OUTER_BOUND('',#72,.T.);
#54=FACE_OUTER_BOUND('',#73,.T.);
#55=FACE_OUTER_BOUND('',#74,.T.);
#56=FACE_OUTER_BOUND('',#75,.T.);
#57=FACE_OUTER_BOUND('',#76,.T.);
#58=FACE_OUTER_BOUND('',#77,.T.);
#59=FACE_OUTER_BOUND('',#78,.T.);
#60=FACE_OUTER_BOUND('',#79,.T.);
#61=FACE_OUTER_BOUND('',#80,.T.);
#62=EDGE_LOOP('',(#220,#221,#222));
#63=EDGE_LOOP('',(#223,#224,#225,#226));
#64=EDGE_LOOP('',(#227,#228,#229));
#65=EDGE_LOOP('',(#230,#231,#232,#233));
#66=EDGE_LOOP('',(#234,#235,#236,#237));
#67=EDGE_LOOP('',(#238,#239,#240,#241));
#68=EDGE_LOOP('',(#242));
#69=EDGE_LOOP('',(#243));
#70=EDGE_LOOP('',(#244,#245,#246,#247,#248,#249,#250,#251,#252,#253,#254));
#71=EDGE_LOOP('',(#255,#256,#257,#258));
#72=EDGE_LOOP('',(#259,#260,#261,#262));
#73=EDGE_LOOP('',(#263,#264,#265,#266,#267,#268,#269,#270,#271,#272,#273));
#74=EDGE_LOOP('',(#274,#275,#276,#277));
#75=EDGE_LOOP('',(#278,#279,#280,#281));
#76=EDGE_LOOP('',(#282,#283,#284,#285));
#77=EDGE_LOOP('',(#286,#287,#288,#289));
#78=EDGE_LOOP('',(#290,#291,#292,#293));
#79=EDGE_LOOP('',(#294,#295,#296,#297));
#80=EDGE_LOOP('',(#298,#299,#300,#301));
#81=LINE('',#467,#110);
#82=LINE('',#471,#111);
#83=LINE('',#476,#112);
#84=LINE('',#480,#113);
#85=LINE('',#486,#114);
#86=LINE('',#489,#115);
#87=LINE('',#492,#116);
#88=LINE('',#494,#117);
#89=LINE('',#495,#118);
#90=LINE('',#498,#119);
#91=LINE('',#500,#120);
#92=LINE('',#504,#121);
#93=LINE('',#508,#122);
#94=LINE('',#512,#123);
#95=LINE('',#513,#124);
#96=LINE('',#516,#125);
#97=LINE('',#519,#126);
#98=LINE('',#522,#127);
#99=LINE('',#523,#128);
#100=LINE('',#526,#129);
#101=LINE('',#528,#130);
#102=LINE('',#532,#131);
#103=LINE('',#535,#132);
#104=LINE('',#536,#133);
#105=LINE('',#538,#134);
#106=LINE('',#539,#135);
#107=LINE('',#541,#136);
#108=LINE('',#544,#137);
#109=LINE('',#546,#138);
#110=VECTOR('',#379,1.25);
#111=VECTOR('',#384,2.5);
#112=VECTOR('',#389,1.25);
#113=VECTOR('',#394,2.5);
#114=VECTOR('',#399,10.);
#115=VECTOR('',#402,10.);
#116=VECTOR('',#405,10.);
#117=VECTOR('',#406,10.);
#118=VECTOR('',#407,10.);
#119=VECTOR('',#410,10.);
#120=VECTOR('',#411,10.);
#121=VECTOR('',#414,10.);
#122=VECTOR('',#417,10.);
#123=VECTOR('',#420,10.);
#124=VECTOR('',#421,10.);
#125=VECTOR('',#424,10.);
#126=VECTOR('',#427,10.);
#127=VECTOR('',#430,10.);
#128=VECTOR('',#431,10.);
#129=VECTOR('',#434,10.);
#130=VECTOR('',#435,10.);
#131=VECTOR('',#438,10.);
#132=VECTOR('',#441,10.);
#133=VECTOR('',#442,10.);
#134=VECTOR('',#445,10.);
#135=VECTOR('',#446,10.);
#136=VECTOR('',#449,10.);
#137=VECTOR('',#454,10.);
#138=VECTOR('',#457,10.);
#139=CIRCLE('',#345,2.5);
#140=CIRCLE('',#347,2.5);
#141=CIRCLE('',#349,2.5);
#142=CIRCLE('',#351,2.5);
#143=CIRCLE('',#353,10.);
#144=CIRCLE('',#354,10.);
#145=CIRCLE('',#357,0.3);
#146=CIRCLE('',#358,0.3);
#147=CIRCLE('',#359,0.3);
#148=CIRCLE('',#361,0.3);
#149=CIRCLE('',#364,0.3);
#150=CIRCLE('',#365,0.3);
#151=VERTEX_POINT('',#464);
#152=VERTEX_POINT('',#466);
#153=VERTEX_POINT('',#469);
#154=VERTEX_POINT('',#473);
#155=VERTEX_POINT('',#475);
#156=VERTEX_POINT('',#478);
#157=VERTEX_POINT('',#482);
#158=VERTEX_POINT('',#483);
#159=VERTEX_POINT('',#485);
#160=VERTEX_POINT('',#487);
#161=VERTEX_POINT('',#491);
#162=VERTEX_POINT('',#493);
#163=VERTEX_POINT('',#497);
#164=VERTEX_POINT('',#499);
#165=VERTEX_POINT('',#501);
#166=VERTEX_POINT('',#503);
#167=VERTEX_POINT('',#505);
#168=VERTEX_POINT('',#507);
#169=VERTEX_POINT('',#509);
#170=VERTEX_POINT('',#511);
#171=VERTEX_POINT('',#515);
#172=VERTEX_POINT('',#517);
#173=VERTEX_POINT('',#521);
#174=VERTEX_POINT('',#525);
#175=VERTEX_POINT('',#527);
#176=VERTEX_POINT('',#529);
#177=VERTEX_POINT('',#531);
#178=VERTEX_POINT('',#534);
#179=EDGE_CURVE('',#151,#151,#139,.T.);
#180=EDGE_CURVE('',#151,#152,#81,.T.);
#181=EDGE_CURVE('',#153,#153,#140,.T.);
#182=EDGE_CURVE('',#153,#151,#82,.T.);
#183=EDGE_CURVE('',#154,#154,#141,.T.);
#184=EDGE_CURVE('',#154,#155,#83,.T.);
#185=EDGE_CURVE('',#156,#156,#142,.T.);
#186=EDGE_CURVE('',#156,#154,#84,.T.);
#187=EDGE_CURVE('',#157,#158,#143,.T.);
#188=EDGE_CURVE('',#158,#159,#85,.T.);
#189=EDGE_CURVE('',#159,#160,#144,.T.);
#190=EDGE_CURVE('',#157,#160,#86,.T.);
#191=EDGE_CURVE('',#161,#158,#87,.T.);
#192=EDGE_CURVE('',#161,#162,#88,.T.);
#193=EDGE_CURVE('',#159,#162,#89,.T.);
#194=EDGE_CURVE('',#157,#163,#90,.T.);
#195=EDGE_CURVE('',#164,#163,#91,.T.);
#196=EDGE_CURVE('',#165,#164,#145,.T.);
#197=EDGE_CURVE('',#165,#166,#92,.T.);
#198=EDGE_CURVE('',#167,#166,#146,.T.);
#199=EDGE_CURVE('',#168,#167,#93,.T.);
#200=EDGE_CURVE('',#169,#168,#147,.T.);
#201=EDGE_CURVE('',#170,#169,#94,.T.);
#202=EDGE_CURVE('',#170,#161,#95,.T.);
#203=EDGE_CURVE('',#164,#171,#96,.T.);
#204=EDGE_CURVE('',#171,#172,#148,.T.);
#205=EDGE_CURVE('',#172,#165,#97,.T.);
#206=EDGE_CURVE('',#173,#172,#98,.T.);
#207=EDGE_CURVE('',#166,#173,#99,.T.);
#208=EDGE_CURVE('',#162,#174,#100,.T.);
#209=EDGE_CURVE('',#175,#174,#101,.T.);
#210=EDGE_CURVE('',#176,#175,#149,.T.);
#211=EDGE_CURVE('',#177,#176,#102,.T.);
#212=EDGE_CURVE('',#173,#177,#150,.T.);
#213=EDGE_CURVE('',#178,#171,#103,.T.);
#214=EDGE_CURVE('',#178,#160,#104,.T.);
#215=EDGE_CURVE('',#175,#169,#105,.T.);
#216=EDGE_CURVE('',#168,#176,#106,.T.);
#217=EDGE_CURVE('',#177,#167,#107,.T.);
#218=EDGE_CURVE('',#174,#170,#108,.T.);
#219=EDGE_CURVE('',#163,#178,#109,.T.);
#220=ORIENTED_EDGE('',*,*,#179,.F.);
#221=ORIENTED_EDGE('',*,*,#180,.T.);
#222=ORIENTED_EDGE('',*,*,#180,.F.);
#223=ORIENTED_EDGE('',*,*,#181,.F.);
#224=ORIENTED_EDGE('',*,*,#182,.T.);
#225=ORIENTED_EDGE('',*,*,#179,.T.);
#226=ORIENTED_EDGE('',*,*,#182,.F.);
#227=ORIENTED_EDGE('',*,*,#183,.T.);
#228=ORIENTED_EDGE('',*,*,#184,.T.);
#229=ORIENTED_EDGE('',*,*,#184,.F.);
#230=ORIENTED_EDGE('',*,*,#185,.F.);
#231=ORIENTED_EDGE('',*,*,#186,.T.);
#232=ORIENTED_EDGE('',*,*,#183,.F.);
#233=ORIENTED_EDGE('',*,*,#186,.F.);
#234=ORIENTED_EDGE('',*,*,#187,.T.);
#235=ORIENTED_EDGE('',*,*,#188,.T.);
#236=ORIENTED_EDGE('',*,*,#189,.T.);
#237=ORIENTED_EDGE('',*,*,#190,.F.);
#238=ORIENTED_EDGE('',*,*,#188,.F.);
#239=ORIENTED_EDGE('',*,*,#191,.F.);
#240=ORIENTED_EDGE('',*,*,#192,.T.);
#241=ORIENTED_EDGE('',*,*,#193,.F.);
#242=ORIENTED_EDGE('',*,*,#181,.T.);
#243=ORIENTED_EDGE('',*,*,#185,.T.);
#244=ORIENTED_EDGE('',*,*,#187,.F.);
#245=ORIENTED_EDGE('',*,*,#194,.T.);
#246=ORIENTED_EDGE('',*,*,#195,.F.);
#247=ORIENTED_EDGE('',*,*,#196,.F.);
#248=ORIENTED_EDGE('',*,*,#197,.T.);
#249=ORIENTED_EDGE('',*,*,#198,.F.);
#250=ORIENTED_EDGE('',*,*,#199,.F.);
#251=ORIENTED_EDGE('',*,*,#200,.F.);
#252=ORIENTED_EDGE('',*,*,#201,.F.);
#253=ORIENTED_EDGE('',*,*,#202,.T.);
#254=ORIENTED_EDGE('',*,*,#191,.T.);
#255=ORIENTED_EDGE('',*,*,#196,.T.);
#256=ORIENTED_EDGE('',*,*,#203,.T.);
#257=ORIENTED_EDGE('',*,*,#204,.T.);
#258=ORIENTED_EDGE('',*,*,#205,.T.);
#259=ORIENTED_EDGE('',*,*,#205,.F.);
#260=ORIENTED_EDGE('',*,*,#206,.F.);
#261=ORIENTED_EDGE('',*,*,#207,.F.);
#262=ORIENTED_EDGE('',*,*,#197,.F.);
#263=ORIENTED_EDGE('',*,*,#189,.F.);
#264=ORIENTED_EDGE('',*,*,#193,.T.);
#265=ORIENTED_EDGE('',*,*,#208,.T.);
#266=ORIENTED_EDGE('',*,*,#209,.F.);
#267=ORIENTED_EDGE('',*,*,#210,.F.);
#268=ORIENTED_EDGE('',*,*,#211,.F.);
#269=ORIENTED_EDGE('',*,*,#212,.F.);
#270=ORIENTED_EDGE('',*,*,#206,.T.);
#271=ORIENTED_EDGE('',*,*,#204,.F.);
#272=ORIENTED_EDGE('',*,*,#213,.F.);
#273=ORIENTED_EDGE('',*,*,#214,.T.);
#274=ORIENTED_EDGE('',*,*,#210,.T.);
#275=ORIENTED_EDGE('',*,*,#215,.T.);
#276=ORIENTED_EDGE('',*,*,#200,.T.);
#277=ORIENTED_EDGE('',*,*,#216,.T.);
#278=ORIENTED_EDGE('',*,*,#216,.F.);
#279=ORIENTED_EDGE('',*,*,#199,.T.);
#280=ORIENTED_EDGE('',*,*,#217,.F.);
#281=ORIENTED_EDGE('',*,*,#211,.T.);
#282=ORIENTED_EDGE('',*,*,#198,.T.);
#283=ORIENTED_EDGE('',*,*,#207,.T.);
#284=ORIENTED_EDGE('',*,*,#212,.T.);
#285=ORIENTED_EDGE('',*,*,#217,.T.);
#286=ORIENTED_EDGE('',*,*,#208,.F.);
#287=ORIENTED_EDGE('',*,*,#192,.F.);
#288=ORIENTED_EDGE('',*,*,#202,.F.);
#289=ORIENTED_EDGE('',*,*,#218,.F.);
#290=ORIENTED_EDGE('',*,*,#214,.F.);
#291=ORIENTED_EDGE('',*,*,#219,.F.);
#292=ORIENTED_EDGE('',*,*,#194,.F.);
#293=ORIENTED_EDGE('',*,*,#190,.T.);
#294=ORIENTED_EDGE('',*,*,#203,.F.);
#295=ORIENTED_EDGE('',*,*,#195,.T.);
#296=ORIENTED_EDGE('',*,*,#219,.T.);
#297=ORIENTED_EDGE('',*,*,#213,.T.);
#298=ORIENTED_EDGE('',*,*,#215,.F.);
#299=ORIENTED_EDGE('',*,*,#209,.T.);
#300=ORIENTED_EDGE('',*,*,#218,.T.);
#301=ORIENTED_EDGE('',*,*,#201,.T.);
#302=CONICAL_SURFACE('',#344,1.25,1.02974425867665);
#303=CONICAL_SURFACE('',#348,1.25,1.02974425867665);
#304=ADVANCED_FACE('',(#45),#302,.F.);
#305=ADVANCED_FACE('',(#46),#39,.F.);
#306=ADVANCED_FACE('',(#47),#303,.F.);
#307=ADVANCED_FACE('',(#48),#40,.F.);
#308=ADVANCED_FACE('',(#49),#41,.T.);
#309=ADVANCED_FACE('',(#50,#14,#15),#16,.F.);
#310=ADVANCED_FACE('',(#51),#17,.T.);
#311=ADVANCED_FACE('',(#52),#42,.T.);
#312=ADVANCED_FACE('',(#53),#18,.F.);
#313=ADVANCED_FACE('',(#54),#19,.F.);
#314=ADVANCED_FACE('',(#55),#43,.T.);
#315=ADVANCED_FACE('',(#56),#20,.T.);
#316=ADVANCED_FACE('',(#57),#44,.T.);
#317=ADVANCED_FACE('',(#58),#21,.F.);
#318=ADVANCED_FACE('',(#59),#22,.F.);
#319=ADVANCED_FACE('',(#60),#23,.T.);
#320=ADVANCED_FACE('',(#61),#24,.T.);
#321=CLOSED_SHELL('',(#304,#305,#306,#307,#308,#309,#310,#311,#312,#313,
#314,#315,#316,#317,#318,#319,#320));
#322=DERIVED_UNIT_ELEMENT(#325,1.);
#323=DERIVED_UNIT_ELEMENT(#554,-3.);
#324=DIMENSIONAL_EXPONENTS(0.,1.,0.,0.,0.,0.,0.);
#325=(
CONVERSION_BASED_UNIT('gram',#327)
MASS_UNIT()
NAMED_UNIT(#324)
);
#326=(
MASS_UNIT()
NAMED_UNIT(*)
SI_UNIT(.KILO.,.GRAM.)
);
#327=MASS_MEASURE_WITH_UNIT(MASS_MEASURE(0.001),#326);
#328=DERIVED_UNIT((#322,#323));
#329=MEASURE_REPRESENTATION_ITEM('density measure',
POSITIVE_RATIO_MEASURE(1.),#328);
#330=PROPERTY_DEFINITION_REPRESENTATION(#335,#332);
#331=PROPERTY_DEFINITION_REPRESENTATION(#336,#333);
#332=REPRESENTATION('material name',(#334),#551);
#333=REPRESENTATION('density',(#329),#551);
#334=DESCRIPTIVE_REPRESENTATION_ITEM('Allgemein','Allgemein');
#335=PROPERTY_DEFINITION('material property','material name',#561);
#336=PROPERTY_DEFINITION('material property','density of part',#561);
#337=DATE_TIME_ROLE('creation_date');
#338=APPLIED_DATE_AND_TIME_ASSIGNMENT(#339,#337,(#561));
#339=DATE_AND_TIME(#340,#341);
#340=CALENDAR_DATE(2008,23,9);
#341=LOCAL_TIME(0,0,0.,#342);
#342=COORDINATED_UNIVERSAL_TIME_OFFSET(0,0,.BEHIND.);
#343=AXIS2_PLACEMENT_3D('',#462,#373,#374);
#344=AXIS2_PLACEMENT_3D('',#463,#375,#376);
#345=AXIS2_PLACEMENT_3D('',#465,#377,#378);
#346=AXIS2_PLACEMENT_3D('',#468,#380,#381);
#347=AXIS2_PLACEMENT_3D('',#470,#382,#383);
#348=AXIS2_PLACEMENT_3D('',#472,#385,#386);
#349=AXIS2_PLACEMENT_3D('',#474,#387,#388);
#350=AXIS2_PLACEMENT_3D('',#477,#390,#391);
#351=AXIS2_PLACEMENT_3D('',#479,#392,#393);
#352=AXIS2_PLACEMENT_3D('',#481,#395,#396);
#353=AXIS2_PLACEMENT_3D('',#484,#397,#398);
#354=AXIS2_PLACEMENT_3D('',#488,#400,#401);
#355=AXIS2_PLACEMENT_3D('',#490,#403,#404);
#356=AXIS2_PLACEMENT_3D('',#496,#408,#409);
#357=AXIS2_PLACEMENT_3D('',#502,#412,#413);
#358=AXIS2_PLACEMENT_3D('',#506,#415,#416);
#359=AXIS2_PLACEMENT_3D('',#510,#418,#419);
#360=AXIS2_PLACEMENT_3D('',#514,#422,#423);
#361=AXIS2_PLACEMENT_3D('',#518,#425,#426);
#362=AXIS2_PLACEMENT_3D('',#520,#428,#429);
#363=AXIS2_PLACEMENT_3D('',#524,#432,#433);
#364=AXIS2_PLACEMENT_3D('',#530,#436,#437);
#365=AXIS2_PLACEMENT_3D('',#533,#439,#440);
#366=AXIS2_PLACEMENT_3D('',#537,#443,#444);
#367=AXIS2_PLACEMENT_3D('',#540,#447,#448);
#368=AXIS2_PLACEMENT_3D('',#542,#450,#451);
#369=AXIS2_PLACEMENT_3D('',#543,#452,#453);
#370=AXIS2_PLACEMENT_3D('',#545,#455,#456);
#371=AXIS2_PLACEMENT_3D('',#547,#458,#459);
#372=AXIS2_PLACEMENT_3D('',#548,#460,#461);
#373=DIRECTION('axis',(0.,0.,1.));
#374=DIRECTION('refdir',(1.,0.,0.));
#375=DIRECTION('center_axis',(1.,2.49488320140485E-16,0.));
#376=DIRECTION('ref_axis',(0.,0.,1.));
#377=DIRECTION('center_axis',(-1.,-2.49488320140485E-16,0.));
#378=DIRECTION('ref_axis',(0.,0.,1.));
#379=DIRECTION('',(-0.515038074910054,-2.35232650038366E-17,0.857167300702112));
#380=DIRECTION('center_axis',(-1.,-2.49488320140485E-16,0.));
#381=DIRECTION('ref_axis',(0.,0.,1.));
#382=DIRECTION('center_axis',(-1.,-2.49488320140485E-16,0.));
#383=DIRECTION('ref_axis',(0.,0.,1.));
#384=DIRECTION('',(-1.,-2.49488320140485E-16,0.));
#385=DIRECTION('center_axis',(1.,2.49488320140485E-16,0.));
#386=DIRECTION('ref_axis',(0.,0.,-1.));
#387=DIRECTION('center_axis',(1.,2.49488320140485E-16,0.));
#388=DIRECTION('ref_axis',(0.,0.,-1.));
#389=DIRECTION('',(-0.515038074910054,-2.35232650038366E-17,-0.857167300702112));
#390=DIRECTION('center_axis',(1.,2.49488320140485E-16,0.));
#391=DIRECTION('ref_axis',(0.,0.,-1.));
#392=DIRECTION('center_axis',(-1.,-2.49488320140485E-16,0.));
#393=DIRECTION('ref_axis',(0.,0.,-1.));
#394=DIRECTION('',(-1.,-2.49488320140485E-16,0.));
#395=DIRECTION('center_axis',(0.,0.,-1.));
#396=DIRECTION('ref_axis',(0.0199999999999999,0.999799979995999,0.));
#397=DIRECTION('center_axis',(0.,0.,-1.));
#398=DIRECTION('ref_axis',(0.0199999999999999,0.999799979995999,0.));
#399=DIRECTION('',(0.,0.,-1.));
#400=DIRECTION('center_axis',(0.,0.,1.));
#401=DIRECTION('ref_axis',(0.0199999999999999,0.999799979995999,0.));
#402=DIRECTION('',(0.,0.,-1.));
#403=DIRECTION('center_axis',(-1.,-2.49488320140485E-16,0.));
#404=DIRECTION('ref_axis',(0.,0.,1.));
#405=DIRECTION('',(-2.49488320140485E-16,1.,0.));
#406=DIRECTION('',(0.,0.,-1.));
#407=DIRECTION('',(2.49488320140485E-16,-1.,0.));
#408=DIRECTION('center_axis',(0.,0.,1.));
#409=DIRECTION('ref_axis',(1.,0.,0.));
#410=DIRECTION('',(0.,1.,0.));
#411=DIRECTION('',(1.,0.,0.));
#412=DIRECTION('center_axis',(0.,0.,-1.));
#413=DIRECTION('ref_axis',(-0.698124459727812,0.715976423305789,0.));
#414=DIRECTION('',(-0.0252444774595053,-0.999681307396411,0.));
#415=DIRECTION('center_axis',(0.,0.,-1.));
#416=DIRECTION('ref_axis',(-0.715976423305791,-0.69812445972781,0.));
#417=DIRECTION('',(-1.,-1.93082265152201E-16,0.));
#418=DIRECTION('center_axis',(0.,0.,-1.));
#419=DIRECTION('ref_axis',(0.70710678118655,-0.707106781186545,0.));
#420=DIRECTION('',(2.24287479722254E-16,-1.,0.));
#421=DIRECTION('',(-1.,0.,0.));
#422=DIRECTION('center_axis',(0.,0.,1.));
#423=DIRECTION('ref_axis',(-0.698124459727812,0.715976423305789,0.));
#424=DIRECTION('',(0.,0.,-1.));
#425=DIRECTION('center_axis',(0.,0.,1.));
#426=DIRECTION('ref_axis',(-0.698124459727812,0.715976423305789,0.));
#427=DIRECTION('',(0.,0.,1.));
#428=DIRECTION('center_axis',(0.99968130739641,-0.0252444774595053,0.));
#429=DIRECTION('ref_axis',(0.,0.,-1.));
#430=DIRECTION('',(0.0252444774595053,0.999681307396411,0.));
#431=DIRECTION('',(0.,0.,-1.));
#432=DIRECTION('center_axis',(0.,0.,1.));
#433=DIRECTION('ref_axis',(1.,0.,0.));
#434=DIRECTION('',(1.,0.,0.));
#435=DIRECTION('',(-2.24287479722254E-16,1.,0.));
#436=DIRECTION('center_axis',(0.,0.,1.));
#437=DIRECTION('ref_axis',(0.70710678118655,-0.707106781186545,0.));
#438=DIRECTION('',(1.,1.93082265152201E-16,0.));
#439=DIRECTION('center_axis',(0.,0.,1.));
#440=DIRECTION('ref_axis',(-0.715976423305791,-0.69812445972781,0.));
#441=DIRECTION('',(-1.,0.,0.));
#442=DIRECTION('',(0.,-1.,0.));
#443=DIRECTION('center_axis',(0.,0.,-1.));
#444=DIRECTION('ref_axis',(0.70710678118655,-0.707106781186545,0.));
#445=DIRECTION('',(0.,0.,1.));
#446=DIRECTION('',(0.,0.,-1.));
#447=DIRECTION('center_axis',(1.93082265152201E-16,-1.,0.));
#448=DIRECTION('ref_axis',(0.,0.,-1.));
#449=DIRECTION('',(0.,0.,1.));
#450=DIRECTION('center_axis',(0.,0.,1.));
#451=DIRECTION('ref_axis',(-0.715976423305791,-0.69812445972781,0.));
#452=DIRECTION('center_axis',(0.,-1.,0.));
#453=DIRECTION('ref_axis',(0.,0.,-1.));
#454=DIRECTION('',(0.,0.,1.));
#455=DIRECTION('center_axis',(-1.,0.,0.));
#456=DIRECTION('ref_axis',(0.,0.,1.));
#457=DIRECTION('',(0.,0.,-1.));
#458=DIRECTION('center_axis',(0.,1.,0.));
#459=DIRECTION('ref_axis',(0.,0.,1.));
#460=DIRECTION('center_axis',(1.,2.24287479722254E-16,0.));
#461=DIRECTION('ref_axis',(0.,0.,-1.));
#462=CARTESIAN_POINT('',(0.,0.,0.));
#463=CARTESIAN_POINT('Origin',(4.54892422621555,6.,-585.));
#464=CARTESIAN_POINT('',(5.3,6.,-587.5));
#465=CARTESIAN_POINT('Origin',(5.3,6.,-585.));
#466=CARTESIAN_POINT('',(3.7978484524311,6.,-585.));
#467=CARTESIAN_POINT('',(4.54892422621555,6.,-586.25));
#468=CARTESIAN_POINT('Origin',(8.3,6.,-585.));
#469=CARTESIAN_POINT('',(11.3,6.,-587.5));
#470=CARTESIAN_POINT('Origin',(11.3,6.,-585.));
#471=CARTESIAN_POINT('',(8.3,6.,-587.5));
#472=CARTESIAN_POINT('Origin',(4.54892422621555,6.,585.));
#473=CARTESIAN_POINT('',(5.3,6.,587.5));
#474=CARTESIAN_POINT('Origin',(5.3,6.,585.));
#475=CARTESIAN_POINT('',(3.7978484524311,6.,585.));
#476=CARTESIAN_POINT('',(4.54892422621555,6.,586.25));
#477=CARTESIAN_POINT('Origin',(8.3,6.,585.));
#478=CARTESIAN_POINT('',(11.3,6.,587.5));
#479=CARTESIAN_POINT('Origin',(11.3,6.,585.));
#480=CARTESIAN_POINT('',(8.3,6.,587.5));
#481=CARTESIAN_POINT('Origin',(1.3,9.60200020004001,605.));
#482=CARTESIAN_POINT('',(1.5,19.6,605.));
#483=CARTESIAN_POINT('',(11.3,9.60200020004001,605.));
#484=CARTESIAN_POINT('Origin',(1.3,9.60200020004001,605.));
#485=CARTESIAN_POINT('',(11.3,9.60200020004001,-605.));
#486=CARTESIAN_POINT('',(11.3,9.60200020004001,605.));
#487=CARTESIAN_POINT('',(1.5,19.6,-605.));
#488=CARTESIAN_POINT('Origin',(1.3,9.60200020004001,-605.));
#489=CARTESIAN_POINT('',(1.5,19.6,605.));
#490=CARTESIAN_POINT('Origin',(11.3,19.8,605.));
#491=CARTESIAN_POINT('',(11.3,2.,605.));
#492=CARTESIAN_POINT('',(11.3,14.85,605.));
#493=CARTESIAN_POINT('',(11.3,2.,-605.));
#494=CARTESIAN_POINT('',(11.3,2.,605.));
#495=CARTESIAN_POINT('',(11.3,14.85,-605.));
#496=CARTESIAN_POINT('Origin',(5.75,9.9,605.));
#497=CARTESIAN_POINT('',(1.5,19.8,605.));
#498=CARTESIAN_POINT('',(1.5,14.85,605.));
#499=CARTESIAN_POINT('',(0.792519880684526,19.8,605.));
#500=CARTESIAN_POINT('',(0.,19.8,605.));
#501=CARTESIAN_POINT('',(0.492615488465603,19.5075733432379,605.));
#502=CARTESIAN_POINT('Origin',(0.792519880684526,19.5,605.));
#503=CARTESIAN_POINT('',(0.00776700361711805,0.30757334323785,605.));
#504=CARTESIAN_POINT('',(0.37675253001606,14.919400188636,605.));
#505=CARTESIAN_POINT('',(0.307671395836042,-1.05081713459459E-15,605.));
#506=CARTESIAN_POINT('Origin',(0.307671395836041,0.299999999999999,605.));
#507=CARTESIAN_POINT('',(11.2,1.0522983450795E-15,605.));
#508=CARTESIAN_POINT('',(11.5,1.11022302462516E-15,605.));
#509=CARTESIAN_POINT('',(11.5,0.300000000000002,605.));
#510=CARTESIAN_POINT('Origin',(11.2,0.300000000000001,605.));
#511=CARTESIAN_POINT('',(11.5,2.,605.));
#512=CARTESIAN_POINT('',(11.5,19.8,605.));
#513=CARTESIAN_POINT('',(8.525,2.,605.));
#514=CARTESIAN_POINT('Origin',(0.792519880684526,19.5,-302.5));
#515=CARTESIAN_POINT('',(0.792519880684526,19.8,-605.));
#516=CARTESIAN_POINT('',(0.792519880684526,19.8,-302.5));
#517=CARTESIAN_POINT('',(0.492615488465603,19.5075733432379,-605.));
#518=CARTESIAN_POINT('Origin',(0.792519880684526,19.5,-605.));
#519=CARTESIAN_POINT('',(0.492615488465602,19.5075733432379,-302.5));
#520=CARTESIAN_POINT('Origin',(0.5,19.8,-605.));
#521=CARTESIAN_POINT('',(0.00776700361711805,0.30757334323785,-605.));
#522=CARTESIAN_POINT('',(0.37675253001606,14.919400188636,-605.));
#523=CARTESIAN_POINT('',(0.00776700361711753,0.307573343237851,-302.5));
#524=CARTESIAN_POINT('Origin',(5.75,9.9,-605.));
#525=CARTESIAN_POINT('',(11.5,2.,-605.));
#526=CARTESIAN_POINT('',(8.525,2.,-605.));
#527=CARTESIAN_POINT('',(11.5,0.300000000000002,-605.));
#528=CARTESIAN_POINT('',(11.5,19.8,-605.));
#529=CARTESIAN_POINT('',(11.2,1.0522983450795E-15,-605.));
#530=CARTESIAN_POINT('Origin',(11.2,0.300000000000001,-605.));
#531=CARTESIAN_POINT('',(0.307671395836042,-1.05081713459459E-15,-605.));
#532=CARTESIAN_POINT('',(11.5,1.11022302462516E-15,-605.));
#533=CARTESIAN_POINT('Origin',(0.307671395836041,0.299999999999999,-605.));
#534=CARTESIAN_POINT('',(1.5,19.8,-605.));
#535=CARTESIAN_POINT('',(0.,19.8,-605.));
#536=CARTESIAN_POINT('',(1.5,14.85,-605.));
#537=CARTESIAN_POINT('Origin',(11.2,0.300000000000001,0.));
#538=CARTESIAN_POINT('',(11.5,0.300000000000001,0.));
#539=CARTESIAN_POINT('',(11.2,1.04083408558608E-15,0.));
#540=CARTESIAN_POINT('Origin',(11.5,1.11022302462516E-15,0.));
#541=CARTESIAN_POINT('',(0.307671395836042,-1.04083408558608E-15,-302.5));
#542=CARTESIAN_POINT('Origin',(0.307671395836041,0.299999999999999,-302.5));
#543=CARTESIAN_POINT('Origin',(11.3,2.,605.));
#544=CARTESIAN_POINT('',(11.5,2.,302.5));
#545=CARTESIAN_POINT('Origin',(1.5,19.8,605.));
#546=CARTESIAN_POINT('',(1.5,19.8,302.5));
#547=CARTESIAN_POINT('Origin',(0.,19.8,0.));
#548=CARTESIAN_POINT('Origin',(11.5,19.8,0.));
#549=UNCERTAINTY_MEASURE_WITH_UNIT(LENGTH_MEASURE(0.01),#553,
'DISTANCE_ACCURACY_VALUE',
'Maximum model space distance between geometric entities at asserted c
onnectivities');
#550=UNCERTAINTY_MEASURE_WITH_UNIT(LENGTH_MEASURE(0.01),#553,
'DISTANCE_ACCURACY_VALUE',
'Maximum model space distance between geometric entities at asserted c
onnectivities');
#551=(
GEOMETRIC_REPRESENTATION_CONTEXT(3)
GLOBAL_UNCERTAINTY_ASSIGNED_CONTEXT((#549))
GLOBAL_UNIT_ASSIGNED_CONTEXT((#553,#555,#556))
REPRESENTATION_CONTEXT('','3D')
);
#552=(
GEOMETRIC_REPRESENTATION_CONTEXT(3)
GLOBAL_UNCERTAINTY_ASSIGNED_CONTEXT((#550))
GLOBAL_UNIT_ASSIGNED_CONTEXT((#553,#555,#556))
REPRESENTATION_CONTEXT('','3D')
);
#553=(
LENGTH_UNIT()
NAMED_UNIT(*)
SI_UNIT(.MILLI.,.METRE.)
);
#554=(
LENGTH_UNIT()
NAMED_UNIT(*)
SI_UNIT(.CENTI.,.METRE.)
);
#555=(
NAMED_UNIT(*)
PLANE_ANGLE_UNIT()
SI_UNIT($,.RADIAN.)
);
#556=(
NAMED_UNIT(*)
SI_UNIT($,.STERADIAN.)
SOLID_ANGLE_UNIT()
);
#557=SHAPE_DEFINITION_REPRESENTATION(#558,#559);
#558=PRODUCT_DEFINITION_SHAPE('',$,#561);
#559=SHAPE_REPRESENTATION('',(#343),#551);
#560=PRODUCT_DEFINITION_CONTEXT('part definition',#565,'design');
#561=PRODUCT_DEFINITION('MP009528','MP009761',#562,#560);
#562=PRODUCT_DEFINITION_FORMATION('',$,#567);
#563=PRODUCT_RELATED_PRODUCT_CATEGORY('MP009761','MP009761',(#567));
#564=APPLICATION_PROTOCOL_DEFINITION('international standard',
'automotive_design',2009,#565);
#565=APPLICATION_CONTEXT(
'Core Data for Automotive Mechanical Design Process');
#566=PRODUCT_CONTEXT('part definition',#565,'mechanical');
#567=PRODUCT('MP009528','MP009761','F\X\FCllprofil ohne Absatz',(#566));
#568=PRESENTATION_STYLE_ASSIGNMENT((#569));
#569=SURFACE_STYLE_USAGE(.BOTH.,#572);
#570=SURFACE_STYLE_RENDERING_WITH_PROPERTIES($,#576,(#571));
#571=SURFACE_STYLE_TRANSPARENT(0.);
#572=SURFACE_SIDE_STYLE('',(#573,#570));
#573=SURFACE_STYLE_FILL_AREA(#574);
#574=FILL_AREA_STYLE('',(#575));
#575=FILL_AREA_STYLE_COLOUR('',#576);
#576=COLOUR_RGB('',0.752941176470588,0.752941176470588,0.752941176470588);
ENDSEC;
END-ISO-10303-21;
